เนื้อเพลง แชร์ (Share) - โปเตโต้ (Potato)

 

 Intro:Csus2/Am/Dm7/G F G F/

Csus            Am              Dm7         G
เธอกักขังตัวเองไว้นานเท่าไหร่    ไม่รับใครเข้ามา
Csus2              Am                Dm7                         G
ความปวดร้าวในคราวนั้นที่มัน ฝังใจอย่าแบกให้เหนื่อยล้า
Em         Am                      Dm7   G              Csus2
*มองที่ฉันคนนี้ที่รักเธอมานาน คนที่เธอนั้นมองผ่านเรื่อยมา
F                 Em      Am   Dm7                   G
อย่าเพิ่งคิดว่าชีวิตของเธอไม่มีค่า       ฉันขอรักษาเธอได้ไหม
Csus2               F                        Em            Dm7        G 
**ให้เธอแชร์ความช้ำในหัวใจมาให้ฉัน  แบ่งมันมาจนเธอนั้นสบายใจ
Csus2               F                      Em                Dm7  G               (Csus2)
และจะแชร์ความรักไปให้เธอเก็บไว้  ใส่มันลงแทนที่ในหัวใจ        ที่เธอปวดร้าว
Csus2/Am/Dm7/G
Csus2         Am             Dm7                G      
เธอเกลียดเขาขนาดไหน ในหัวใจ  ยังคิดไปคิดมา
Csus2            Am                Dm7                      G
ความอ่อนไหวในวันนี้ ที่เธอนั้นมี นั่นแหละคือปัญหา
(*,**)
Solo: F/Em/Dm G/C
F/Em Am /Dm/G/
(**)
Csus2/F/Em/Dm G/Csus2
 
 
TAB 
 
 Share_Potato  
Intro:
Csus2		       Am7		   Dm7		      G		F
E|---------3----------------------|----------------------------|------------------------|-3----------3--1--------1--|
B|-------------3------------------|----------3-----------------|-------6---5---6---8-|---------3-------------1------|
G|-----------------5---4—4h5--|------5------5----4--------|-------5--------------|-----4--------------2---------|
D|-----5--------------------------|----5------------------5s7--|---7------------------|-------------------------------|
A|--3-----------------------------|-0---------------------------|-5---------------------|------------------------------|
E|---------------------------------|------------------------------|-----------------------|-3--------------1------------|
Em7		   F
E|---3-------3---------1)----------|
B|-------3-------3-----1)----------|
G|----------------------2)----------|
D|----------------------3)----------|
A|----------------------3)----------|
E|--0-------------------1)----------|
 
(*) เธอกักขังตัวเองไว้…
Csus2	    Am7		Dm7	          F		    G		     F
E|-------------------3-|--------------3--|--1---------1-----1)----------1-|----------------0-------1)--------|
B|--0------0----------|-----------1-----|----------1--------1)-----1-----|---0--------0-----------1)---------|
G|------0-------0-----|--2----0--------|-------2-----------2)--2---------|-------0----------------2)---------|
D|---------------------|-----2----------|---0----------------3)------------|-------------------------3)---------|
A|--3-----------------|--0--------------|-----------------------------------|------------------------3)---------|
E|---------------------|-----------------|-----------------------------------|--3---------------------1)---------| 
 
ความปวดร้าวในคราวนั้น…
Csus2			          Am7			 Dm7			F
E|---------------------3--------------|---------------------3--------------|--1)-------------1------------|--1)------------1-------1|
B|---0-------0----------------0------|--1--------1----------------1------|--1)------1------------1-----|--1)------1-------------2|
G|-------0-------0--------0------0--|-------2-------2---------2-------2-|--2)---2----2------2-----2--|--2)---2-----2-----2----|
D|------------------------------------|-------------------------------------|--0)--------------------------|--3)----------------------|
A|--3--------------------------------|---0---------------------------------|------------------------------|---------------------------|
E|------------------------------------|-------------------------------------|------------------------------|------------- 
 
 **) มองที่ฉันคนนี้…
Em7			     Am			Dm7	        F	           Em
E|--0)-----------------0---------|-----------0-------------0--|---1)-------1----1)------1-|--------------------0----------------|
B|--3)---------3---------------3-|--3---------------1--------|---1)-------------1)--------|----0-------0-----------------0------|
G|--0)------------0--------0----|--------0------0------0----|---2)----2--------2)---2----|--------0------0---------0-------0---|
D|--2)-----2---------------------|----------------------------|---0)--------------3)--------|--------------------------------------|
A|--2)---------------------------|---0------------------------|------------------------------|---------------------------------------|
E|--0)----------------------------|----------------------------|------------------------------|---0----------------------------------|
อย่าพึ่งคิดว่าชีวิต…
Am			           Em7                     Am	           Dm7
E|-------------------0---------------|--------------0-----------------------------|--1)-------------------1-------------------|
B|--1)-------1--------------1-------|---3)-------------------3----------1-------|--1)----------1----------------1----------|
G|--2)---2------2------2-------2---|---0)----0-------0-----------0---------0--|--2)-----2-------2--------2--------2------|
D|--2)-------------------------------|---2)---------------------------------------|--0)----------------------------------------|
A|--0)------------------------------|---2)-------------------0-------------------|---------------------------------------------|
E|-----------------------------------|---0)----------------------------------------|------------------------------------
 
 
   F			    G                                   F   (รอบหลัง)         
E|--1)-----------------------------3)-----|                    E|--1)---------------1------1)----------------|    
B|--1)---------1----3-------------0)-----|	       B|--1)---------1----1------1)------1---------|
G|--2)-----2----------------------0)-----|                     G|--2)-----2--------2-----2)---2-----2------|
D|--3)----------------------------0)-----|	        D|--3)--------------------3)-----------------|
A|--------------------------------2)------|	        A|-------------------------------------------|
E|--------------------------------3)------|      	        E|-------------------------------------------|      
(***)ให้เธอแชร์ความช้ำในหัวใจ…
Cmaj7			Am				Csus2
E|--------------------0-----------------|------------------------0-----------------|---------------------0--------------------|
B|--0--------0----------------0--------|--1---------1--------------------1-------|-------------3----------------3----------|
G|-------0-------0-------0--------0---|--------2--------2-----------2---------2-|---------0------0--------0--------------|
D|--------------------------------------|-------------------------------------------|----2)-----------------------------------|
A|--3----------------------------------|---0---------------------------------------|---3)-------------------------------------|
E|--------------------------------------|-------------------------------------------|------------------------------------------|
Dm7			F
E|--1)------------1-------------1)--------------1-------------|
B|--1)--------------------------1)------------------------------|
G|--2)------2---------2--------2)------2----------------------|
D|--0)--------------------------3)-----------------------------|
A|--------------------------------------------------------------|
E|--------------------------------------------------------------| 
 
 
 
 และจะแชร์ความรัก…    
Cmaj7			Am				Csus2
E|--------------------0-----------------|------------------------0-----------------|---------------------0--------------------|
B|--0--------0----------------0--------|--1---------1--------------------1-------|-------------3----------------3----------|
G|-------0-------0-------0--------0---|--------2--------2-----------2---------2-|---------0------0--------0--------------|
D|--------------------------------------|-------------------------------------------|----2)-----------------------------------|
A|--3----------------------------------|---0---------------------------------------|---3)-------------------------------------|
E|--------------------------------------|-------------------------------------------|------------------------------------------|
Dm7	                		  F
E|--1)-----------------------1-------------1)----------------------------------|
B|--1)-----------------1------------------1)-------------1--------------------|
G|--2)---------2--------------------------2)------2-------------2-------------|
D|--0)------------------------------------3)-----------------------------------|
A|-----------------------------------------------------------------------------|
E|------------------------------------------------------------------------------|
 
 
Intro:
Csus2				Am7				Dm7				  F
E|---------------------3----------------|-------------------------3-----------------|--1)-------------1--------------1---1-------1)|
B|--0--------0------------------0------|--1----------1---------------------1------|--1)-----1-------------1-------1---1-------1)|
G|-------0--------0--------0--------0-|--------0----------0----------0---------0-|--2)--2-----2------2------2---2---2-------2)|
D|--------------------------------------|--------------------------------------------|--0)----------------------------0---0-------3)|
A|--3----------------------------------|---0----------------------------------------|------------------------------------------------|
E|--------------------------------------|--------------------------------------------|------------------------------------------------|
เธอเกลียดเขาขนาดไหน…  (ซ้ำ * )
(ซ้ำ **,***)
Solo: Csus2/Am/Em7 Dm7 F/
Csus2/Am/Em7 Dm7 F/G/
(ซ้ำ ***)
out tro: Cmaj7/Am/Csus2/Dm7 F/Csus2/
 
ปล. ตัว H ก็ hamer on อ่ะคับ
Cord&Tab
By..  www.musicatm.com
Arm_NooB 
 
 

 

edit @ 9 Jul 2009 22:24:54 by musicbranga

Comment

Comment:

Tweet