เนื้อเพลง HOLIDAY. - SCORPIONS Chords

posted on 12 Jul 2009 10:34 by musicbranga in Music

 

 

 

 

 

HOLIDAY. 
ศิลปิน : SCORPIONS
INTRO  :  Dm  C  Bb  A  ( 4 ครั้ง  )
Dm
let  me  take  you  far  away
C          A    Dm
you'd  like  a  holiday
Dm
let  me  take  you  far  away
C           A     Dm
you'd  like  a  holiday
C                                    Dm
sine  the  cold  days  part  the  sun
Gm                           A
the  good  time  and  fun
Dm        
let  me  take  you  far  away
C         A   Dm
tou'd  like  a  holiday
Dm
let  me  take  you  far  away
C          A    Dm
tou'd  like  a  holiday
Dm        
let  me  take  you  far  away
C          A   Dm
tou'd  like  a  holiday
C                                                 Dm
it  sends  you  trouble  for  so  long
Gm                 A
wherever  you  are
Dm        
let  me  take  you  far  away
C          A   Dm
tou'd  like  a  holiday
Dm                   C                Bb              A
ooh  ah.....ha.....ah.....ha.....ah.....ha.....ah
Dm  
longin.  for  the   sun    you  will  came  
C                              Bb
to  the  island  away  with  me
Dm                   
longin  for  the  sun  he  will  come
C                                                Bb    Dm
on  the  island  many  miles  away  from  home
Dm                        C                 Bb
he  will  come  on  the  island  with  me
Dm
longin,  for  the  sun  you  will  come
C                         Bb               Dm
to  the  island  many  miles  away  from  home.....
Dm   C   Bb
away  from  home.....
Dm   C   Bb
away  from  home.....
Dm   C   Bb
away  from  home.....
intro  
Holiday
จับคอร์ด Dm ไว้ง่ายดี
1>--3---1---0----------1-----0--------------------1----------------------1---------
2>------------------3--------------3------------------------------3----------------     4 ครั้ง 
3>--------------------------------------2------------------2---------------------
4>----------------------------------------------0--------------------------
solo  intro
1>---------------/9-----------------------------
2>--/9--/12------------------/9-----------------
3>----------------------9-----------9-----------
1>-------------/9-------------------------------------------
2>--/9--/12----------------------------5----7---------------
3>------------------9-------/5--7-------------------9------- 
 
solo**  ท่อนกลาง
1>--------------------------------------------------------------------------------
2>---5---7---9---7------------------------12----14-----12----9--9p10p---9---------
3>------------------8-----9----11----13-------------------------------------------
outro  ท่อนสุดท้าย
1>--3---1---0-------1---0---------------1----------------------1---------
2>--------------3------------3--------------------------3----------------      3ครั้ง 
3>---------------------------------2---------------2---------------------
4>--------------------------------------------0--------------------------
1>--3---1---0-------1---0-----------------------------------------------
2>--------------3------------3------------------------------------------      2 ครั้ง 
3>---------------------------------2------------------------------------
4>----------------------------------------------------------------------
1>--3---1---0-------1---0------------------1----------------------------
2>--------------3------------3------------------------------------------      1 ครั้ง 
3>---------------------------------2------------------------------------
4>---------------------------------------------------------------------- 

edit @ 12 Jul 2009 10:35:43 by musicbranga

Comment

Comment:

Tweet

#15 By noppadon24992499 (115.67.167.24) on 2013-09-11 22:57

#14 By noppadon24992499 (115.67.167.24) on 2013-09-11 22:56

Performing my internet site I have faced a problem of stolen content. It made big problems to my site! Fortuitously, my sister recommended me to try the plagiarism detection "theplagiarism.com". As a fact, my website is getting well now.

#13 By plagiarism detection (103.7.57.18|31.184.238.21) on 2012-06-05 20:01

That supposes to be not complicated to satisfy your academic needs if you find essay writing services at reputable essay papers writing service.

#12 By pay for essay (31.184.236.16) on 2011-12-24 09:48

Are you going to do automated articles submission? Do you know that it can be ineffective? You can just waste your time! Thence, do not waste your time and visit the url submission directory provider.

#11 By submission directory (193.105.210.41) on 2011-11-17 09:20

Colleges programs include course paper competing. Thence, lots of college students become to ask: " write my papers " online.

#10 By buy papers online (193.105.210.41) on 2011-11-15 09:38

I value your data related to this good topic. I just wanted say that I didn’t detect such kind of great writer before this moment. Are you able accomplish the really great thesis writing and example of thesis?

#9 By dissertation writing (193.105.210.41) on 2011-11-15 08:59

Self upbringing will be purpose of evebody’s lifestyle! For this goal, the <a href="http://www.4writers.net">writing jobs</a> service provide the topics connecting to this good topic.

#8 By writers job (193.105.210.41) on 2011-11-12 01:38

The essay writing service would provide all students with the story about buy essay and that is good that you show students your article just about this post.

#7 By buy a research paper (193.105.210.41) on 2011-11-06 18:56

What internet sites sell great quality samples for essay papers accomplishing? I must create term papers. Other way I will tell professionals: " Write My Paper for me ".

#6 By Essays Written (193.105.210.41) on 2011-11-06 18:55

That is practicable to order pre written essay and buy custom essay papers at the custom writing services just about this good post.

#5 By buy essay (193.105.210.41) on 2011-11-06 09:23

I state that students would be satisfied, if order msc thesis at dissertation writing service. Furthermore, it can save a lot of time.

#4 By dissertation service (193.105.210.41) on 2011-11-06 09:11

It is a cool story associated with life. Guys would like to have such great writing skills. But they have to buy the dissertation citations adviced by some professional thesis writing.

#3 By thesis writing service (193.105.210.41) on 2011-11-04 15:05

Some time before, I needed to buy a good house for my corporation but I did not have enough cash and could not purchase anything. Thank God my dude proposed to get the <a href="http://goodfinance-blog.com/topics/mortgage-loans">mortgage loans</a> at reliable creditors. Thence, I did that and was satisfied with my auto loan.

#2 By McknightBERTA19 (91.212.226.143) on 2011-11-02 13:01

เด็ก1ขวบ10เดือนอย่างผมร้องholidayได้เป๊ะๆครับhttp://www.youtube.com/watch?v=cF90eMN6wo0&feature=related
ทั้งร้องทั้งโซโลกีต้าร์ในblackout http://www.youtube.com/watch?v=tbRDjMUb8-Y&NR=1

#1 By chanatnuch (58.64.92.151) on 2011-02-06 00:18