More Than Word - Extreme Chords

posted on 12 Jul 2009 10:30 by musicbranga in Music

 

 

 

 

More Than Word - Extreme            
Intro:  G  Cadd9  Am7 C C D  G
G          Cadd9
Saying I love you is   
Am7             C       D         G
not the words I want to hear from you
G                Cadd9
It's not that I want you
Am7            C      D    Em
not to say but if you only knew
Bm7   Am7
Ho-ow ea-sy
D              G      D/F#     Em
It would be to show me how you feel
Bm7       Am7       D7              G7
More than words  is all you have to do 
G7              C
To make it real
C         Cm              G
Then you wouldn't have to say
Em7
That you love me 'cos
Am7     D7     G
I'd  already know
G                 D/F#   Em        Bm      C
What would you do if my heart was to in two
C                    G/B     Am7             D7                G
More than words to show you feel that your love for me is real
G                   D/F#  Em7        Bm7    C
What would you say if I took those words away?
C                     G/B      Am7
Then you couldn't make things new
D7             G
Just by saying I love you
Solo:  G  Cadd9  Am7 C C D  G ( 2 Times ) 
G                 Cadd9
Now that I've tried to
Am7         C            D           G
Talk to you and make you understand
G                    Cadd9
All that you have to do is
Am7                 C             D          Em
Close your eyes and just reach out your hands
Bm7   Am7
And touch me
D              G      D/F#       Em
Hold me close don't ever let me go
Bm7       Am7    
More than words
D7      G7                               C
Is all I ever needed you to show
C         Cm              G
Then you wouldn't have to say
Em7
That you love me 'cos
Am7     D7     G
I'd  already know

 

Intro:  G                                  Cadd9                                  Am/Am7     
^   v          v   v             v   v         ^     v    v                 v   v               v    v   
1|--------------x-----------x---|---------x--------------------x---|--------------x------3--3---x---|---
2|----------0--x---0---1--x---|--3--3--x---------3---3----x---|----1--1----x---------------x---|--
3|----------0--x---0-------x---|--0--0--x---------0---0---x---|-----2--2----x---------------x--|--
4|----------0--x---0-------x---|--2--2--x---------2---2---x---|-----2--2----x---------------x--|--
5|------x------x---2-------x---|--3-(3)-x---(3)--3---3----x---|----0--(0)---x---0-----------x--|---
6|------3------x------------x---|---------x-------------------x---|--------------x---------------x--|--
.
C/D/Dsus4                                 G....
^     v         v    v    v  ^              ^   ^        v
1|----------0---x---2-------3p2--x---|-------3------3---x--|--
2|----(1)--1---x---3---------------x--|-------(0)---------x--|--
3|----(0)--0---x---2--(2)---------x---|------(0)---------x---|--
4|----(2)--2---x---0---------------x---|------(0)---------x--|--
5|-----3--------x-------------------x---|------(2)---------x--|--
6|--------------x--------------------x---|--0---3----------x--|---

 

คำแปล

"ฉันรักเธอ" ไม่ใช่คำที่ต้องการได้ยิน(จากเธอ)
ไม่ใช่ไม่อยากให้เธอพูดคำคำนั้น แต่เพียงแค่อยากให้เธอรู้อย่างอย่างเดียวว่า
มันจะง่ายกว่า ถ้าเธอจะแสดงความรู้สึกนั้นออกมาว่าสิ่งที่พูดมันเป็น
ความจริง (ลึกซึ้ง)มากกว่าคำพูดใดๆ
และถึงวันนั้น เธอก็คงจะไม่ต้องพูดอะไรอีก เพราะฉันรู้แล้ว

ถ้าซักวันฉันแบ่งใจเป็นสอง เธอจำทำยังไง
ถ้าซักวันฉันไม่อยากได้ยินคำนี้จากเธอ เธอจะพูดอะไร
ถึงวันนั้นเธออาจไม่มีโอกาสแม้แต่จะเริ่มต้นใหม่
เพียงเพราะแค่คำพูดอย่างเดียว(แต่ไม่ทำ) ว่า"ฉันรักเธอ"
 

edit @ 12 Jul 2009 10:31:59 by musicbranga

Comment

Comment:

Tweet