เนื้อเพลง santeria - sublime Chords Tab

posted on 12 Jul 2009 10:43 by musicbranga in Music

 

 

 

Intro:

E Ab
e-------------------- e----------------
b-------------------- b---4------------
g-----9-------9-9---- g-----5----------
d---9---9---------9-- d-------6--------
a-7-------7-7-------7 a-----------6-2-4
e-------------------- e-4-------4------

Dbm B
e-------------------- e---2------------
b-----------5-------- b-----4----------
g-----6-------6------ g-------4--------
d---6---6-------6---- d----------------
a-4-------4---------- a-2-------2------
e-------------------- e----------------


E, Ab, Dbm, B

Verse 1:
E Ab
I don't practice santeria I ain't got no crystal ball

Dbm B
I had a million dollars but I'd, I'd spend it all

E Ab
If I could find that Heina and that Sancho she's found

Dbm B
Well I'd pop a cap in Sancho and I'd slap her down

Chorus:

A B E Dbm
All I really wanna know my baby

A B E Dbm A
All I really wanna say I can't define

B E Dbm
It's love that I need

A B
But my soul will have to

Verse 2:

E
Wait 'till I get back, find a Heina of my own
Daddy's gonna love one and all
I feel the break, feel the break, feel the break
And I gotta live it up
Oh yeah, uh huh, well I swear that I

Chorus:

All I really wanna know my baby
All I really wanna say I can't define
That love will make it go
My soul will have to...

Solo

Chorus

All I really wanna say my baby
All I really wanna say is I've got mine
And I'll make it yes I'm comin' up
Tell Sanchito that if

Verse 3:

He knows what is good for him he best go run and hide
Daddy's got a new 45
And I won't think twice to stick that barrel straight down Sancho's throat
Believe me when I say that I've got something for his punk ass

Chorus

Well I really wanna know my baby
What I really wanna say is there's just one way back
And I'll make it
yeah my soul will have to wait

Chorus Riff:

A B E Dbm
e-5-------7-----------------------
b---5-------7-----9---------------
g-----6-------8-----9---------6---
d-------7-------9-------9-6-----6-
a---------------------7-----4-----
e---------------------------------



SUBLIME's
Santeria-

As close as I could come to it at least. Oh, well, I think I
did a damn good job on it, but you don't have to. Toy with it
some and try to make it sound better. The intro was all I got,
but it was worth it anyway. Have fun...

-------------------------------
-------------------------------
---9-------9---------5-----5---
--9--9----9-9----------6---6-6-
7-----7-7----7------6---6--6-6-
-------------(7\4)4-----(4)4---

------------------------------------|
-------5---5-4(3)----------7--------|
-----------6-4(3)6/7(\6)--6--6------|
(6)---6--6-------4/5(\4)4------4----|
66p44-----4-------------------------|
------------------------------------|

..let the last note ring until the verse breaks in with

 TabGuiter

\ = SLIDE
h = hammer
p = pull off
b = bend
r = reverse bend
{ = rest
INTRO E                  Ab               Dbm
-----------------------------------------------------------------------------
------------------5-----------9----9-9-----------5---------------6-----6---6---9--9-------9---
----6---6------------6--6-----6---7------7-------7-------------6-4\2--4-----4----------------
-----------4-------4----------------------
B
----------------
----------------
-----8----------
---9---9---9---9
-------------9--
-7-------7------
VERSE
{ E { E { E { E { Ab { Ab { Ab { Ab  
----              ---
---9              --- 
---9              -5-
---9              -6-
---7              -6-
----              -4-
{ Dbm { Dbm { Dbm { Dbm { B { B { B { B
-----                    ---
---5-                    --- 
---6-                    -8-
---6-                    -9-
---4-                    -9-
-----                    -7-
REPEATS ONE MORE TIME
CHORUS
A        B        E B C#m
-----------------------9
-------------------9---9
-6-6------8-8------9-8-9
-7---7----9---9----9-9-11
-7-----7--9-----9--7-9-11
-5--------7----------7-9
REPEATS 4 TIMES
GUITAR SOLO
------------------------------------------------------
------------------------------------------------------
-------------9-11b-11b-9-8-6h8p6-8-6p4---4------------
--------9-11---------------------------6---4b-4b-2---2
-7-9/11--------------------------------------------4--
------------------------------------------------------
---------------------------------9----------------------
-------------------------5-5-12b---12-9-----------------
-------------------4h5h6----------------11b-9----11----9
-------------2h3h4----------------------------11----11--
-------2h3h4--------------------------------------------
-2h3h4--------------------------------------------------
--------------9---------9--------------
----------11b---9---11b---9---12b-(12)r
---5---5--11b-----9-11b-----9-11b-(11)r
-6---6---------------------------------
---------------------------------------
---------------------------------------
 
 
Tab Bass
 
Intro.
g------16---------20-----------------4----------------------------
d--14--14-----------------------------------------------------------
a--------------------------4-------------------------------------------
e--------------16-------------------------------------------------
First Verse ?I don?t practice Santeria . . . .?etc.
g-----------------------------------------------------------------
d-----------7h9-7h9-6-6---6-6-6-6-6-------------------------------
a-7-7---7-7------------6h8----------4--4-4-4--4--------------7h9---
e----7h9----------------------------------------7-7--7-7--9-7---------
g-----------------------------------------------------------------
d-----------7h9-7h9-6-6------------------------------------------
a-7-7---7-7------------6-6-6------4h6p4-4---4-4-4-2--2-2-2-2--2-2-2--
e----7h9--------------------4--4-4-------4h6------------------------
Chorus (Repeat 3 times) ?What I really wanna say . . . .? etc.
g-----------------------------------------------------------------
d-----------------------------------------------------------------
a----7-7---7-7----9-9--9-9-7--7-6--6-4-4-------------------------
e-5-5----------7-7-------------------4-4--4-4--------------------
g-----------------------------------------------------------------
d-----------------------------------------------------------------
a----7-7---7-7---9-9---9-9-----------------------------------------------
e-5-5---------7-7--------------------------------------------------------
Second Verse ? . . . wait till I get back . . . .? etc.
g---------------------------------------------------------------------
d-----------7h9-7h9-6-6---6-6-6---6----6-6-----6-6-------------------
a-7-7---7-7------------6h8-----6h8--4-4---4-4-4---4----9-9---------7h9
e----7h9--------------------------------------------7-7---7-7-7-9p7---
g-----------------------------------------------------------------------
d-----------7h9-7h9-6-6---6-6-6---6----6-6-----6-6--9--9--9--9--9--9-9-9
a-7-7---7-7------------6h8-----6h8--4-4---4-4-4---4------9-----9--------
e----7h9----------------------------------------------------------------
Second chorus (same as the first)
Guitar Solo (same as second verse)
Third Chorus
Third Verse ? . . . if he knows what is good for him . . . .? etc.
g--------------------------------------------------------------------
d-----------7h9-7h9----6------6------6-6------6-6--------------------
a-7-7---7-7----------------------4-4----4-4--4---4----9-9---------7h9
e----7h9------------4-4-4-4--4-4-------------------7-7---7-7-7-9p7---
g-----------------------------------------------------------------
d-----------7h9-7h9-6--6---6-6--6--6----6-6------6-6--9-9-9--9-9-9-9
a-7-7---7-7-------------6h8------6---4-4---4-4--4---4----9----9----
e----7h9-------------------------------------------------------------
Last Chorus
g-----------------------------------------------------------------
d-----------------------------------------------------------------
a----7-7--7-7---9-9--9-9-7--7-6--6-4-4------------7-7--7-7----9-9-9-9
e-5-5--------7-7----------------------4-4--4-4-5-5--------7-7------
g-----------------------------------------------------------------
d--9--------------------------------------------------------------
a-7-7-6--6-6-4-4-------------7-7-7-7---9-9--9-9-7--7-6--6-4-4------
e---------------4-4--4-4-5-5--------7-7----------------------4--4-
g-----------------------------------------------------------------
d-----------------------------------------------------------------
a----7-7--7-7---9-9--9-9------------------------------------------
e-5-5--------7-7-----------------------------------------------------
Outro
g-----------------------------------------------------------------
d-----------------------------------------------------------------
a-7--6--4--2--0--2--7---------------------------------------------
e-------------------0------------------------------------------------ 
 
 

 

edit @ 12 Jul 2009 10:46:54 by musicbranga

edit @ 12 Jul 2009 11:59:29 by musicbranga

Comment

Comment:

Tweet